  0
SECTION
  2
HEADER
  9
$ACADVER
  1
AC1015
  9
$ACADMAINTVER
 70
     6
  9
$DWGCODEPAGE
  3
ANSI_1252
  9
$INSBASE
 10
0.0
 20
0.0
 30
0.0
  9
$EXTMIN
 10
-40.01837522495018
 20
-6.416844059356691
 30
-0.0000000100018307
  9
$EXTMAX
 10
31.78651542514589
 20
48.0312144918026
 30
0.0000000100018311
  9
$LIMMIN
 10
0.0
 20
0.0
  9
$LIMMAX
 10
0.0
 20
0.0
  9
$ORTHOMODE
 70
     0
  9
$REGENMODE
 70
     1
  9
$FILLMODE
 70
     1
  9
$QTEXTMODE
 70
     0
  9
$MIRRTEXT
 70
     1
  9
$LTSCALE
 40
1.0
  9
$ATTMODE
 70
     1
  9
$TEXTSIZE
 40
0.2
  9
$TRACEWID
 40
0.05
  9
$TEXTSTYLE
  7
Standard
  9
$CLAYER
  8
0
  9
$CELTYPE
  6
ByLayer
  9
$CECOLOR
 62
   256
  9
$CELTSCALE
 40
1.0
  9
$DISPSILH
 70
     0
  9
$DIMSCALE
 40
1.0
  9
$DIMASZ
 40
0.09
  9
$DIMEXO
 40
0.05
  9
$DIMDLI
 40
0.38
  9
$DIMRND
 40
0.0
  9
$DIMDLE
 40
0.0
  9
$DIMEXE
 40
0.0625
  9
$DIMTP
 40
0.0
  9
$DIMTM
 40
0.0
  9
$DIMTXT
 40
0.1666666666666666
  9
$DIMCEN
 40
0.09
  9
$DIMTSZ
 40
0.0
  9
$DIMTOL
 70
     0
  9
$DIMLIM
 70
     0
  9
$DIMTIH
 70
     1
  9
$DIMTOH
 70
     1
  9
$DIMSE1
 70
     0
  9
$DIMSE2
 70
     0
  9
$DIMTAD
 70
     0
  9
$DIMZIN
 70
     0
  9
$DIMBLK
  1

  9
$DIMASO
 70
     1
  9
$DIMSHO
 70
     1
  9
$DIMPOST
  1

  9
$DIMAPOST
  1

  9
$DIMALT
 70
     0
  9
$DIMALTD
 70
     2
  9
$DIMALTF
 40
25.4
  9
$DIMLFAC
 40
1.0
  9
$DIMTOFL
 70
     0
  9
$DIMTVP
 40
0.0
  9
$DIMTIX
 70
     0
  9
$DIMSOXD
 70
     0
  9
$DIMSAH
 70
     0
  9
$DIMBLK1
  1

  9
$DIMBLK2
  1

  9
$DIMSTYLE
  2
Standard
  9
$DIMCLRD
 70
     0
  9
$DIMCLRE
 70
     0
  9
$DIMCLRT
 70
     0
  9
$DIMTFAC
 40
1.0
  9
$DIMGAP
 40
0.06
  9
$DIMJUST
 70
     0
  9
$DIMSD1
 70
     0
  9
$DIMSD2
 70
     0
  9
$DIMTOLJ
 70
     1
  9
$DIMTZIN
 70
     0
  9
$DIMALTZ
 70
     0
  9
$DIMALTTZ
 70
     0
  9
$DIMUPT
 70
     0
  9
$DIMDEC
 70
     4
  9
$DIMTDEC
 70
     4
  9
$DIMALTU
 70
     2
  9
$DIMALTTD
 70
     2
  9
$DIMTXSTY
  7
Standard
  9
$DIMAUNIT
 70
     0
  9
$DIMADEC
 70
     0
  9
$DIMALTRND
 40
0.0
  9
$DIMAZIN
 70
     0
  9
$DIMDSEP
 70
    46
  9
$DIMATFIT
 70
     3
  9
$DIMFRAC
 70
     0
  9
$DIMLDRBLK
  1

  9
$DIMLUNIT
 70
     2
  9
$DIMLWD
 70
    -2
  9
$DIMLWE
 70
    -2
  9
$DIMTMOVE
 70
     0
  9
$LUNITS
 70
     2
  9
$LUPREC
 70
     3
  9
$SKETCHINC
 40
0.1
  9
$FILLETRAD
 40
0.5
  9
$AUNITS
 70
     0
  9
$AUPREC
 70
     0
  9
$MENU
  1
.
  9
$ELEVATION
 40
0.0
  9
$PELEVATION
 40
0.0
  9
$THICKNESS
 40
0.0
  9
$LIMCHECK
 70
     0
  9
$CHAMFERA
 40
0.5
  9
$CHAMFERB
 40
0.5
  9
$CHAMFERC
 40
1.0
  9
$CHAMFERD
 40
0.0
  9
$SKPOLY
 70
     0
  9
$TDCREATE
 40
2454588.580789873
  9
$TDUCREATE
 40
2454588.789123206
  9
$TDUPDATE
 40
2454719.635814780
  9
$TDUUPDATE
 40
2454719.844148113
  9
$TDINDWG
 40
0.0342080903
  9
$TDUSRTIMER
 40
0.0342080903
  9
$USRTIMER
 70
     1
  9
$ANGBASE
 50
0.0
  9
$ANGDIR
 70
     0
  9
$PDMODE
 70
     0
  9
$PDSIZE
 40
-1.0
  9
$PLINEWID
 40
0.0
  9
$SPLFRAME
 70
     0
  9
$SPLINETYPE
 70
     6
  9
$SPLINESEGS
 70
     8
  9
$HANDSEED
  5
20F
  9
$SURFTAB1
 70
     6
  9
$SURFTAB2
 70
     6
  9
$SURFTYPE
 70
     6
  9
$SURFU
 70
     6
  9
$SURFV
 70
     6
  9
$UCSBASE
  2

  9
$UCSNAME
  2

  9
$UCSORG
 10
0.0
 20
0.0
 30
0.0
  9
$UCSXDIR
 10
1.0
 20
0.0
 30
0.0
  9
$UCSYDIR
 10
0.0
 20
1.0
 30
0.0
  9
$UCSORTHOREF
  2

  9
$UCSORTHOVIEW
 70
     0
  9
$UCSORGTOP
 10
0.0
 20
0.0
 30
0.0
  9
$UCSORGBOTTOM
 10
0.0
 20
0.0
 30
0.0
  9
$UCSORGLEFT
 10
0.0
 20
0.0
 30
0.0
  9
$UCSORGRIGHT
 10
0.0
 20
0.0
 30
0.0
  9
$UCSORGFRONT
 10
0.0
 20
0.0
 30
0.0
  9
$UCSORGBACK
 10
0.0
 20
0.0
 30
0.0
  9
$PUCSBASE
  2

  9
$PUCSNAME
  2

  9
$PUCSORG
 10
0.0
 20
0.0
 30
0.0
  9
$PUCSXDIR
 10
1.0
 20
0.0
 30
0.0
  9
$PUCSYDIR
 10
0.0
 20
1.0
 30
0.0
  9
$PUCSORTHOREF
  2

  9
$PUCSORTHOVIEW
 70
     0
  9
$PUCSORGTOP
 10
0.0
 20
0.0
 30
0.0
  9
$PUCSORGBOTTOM
 10
0.0
 20
0.0
 30
0.0
  9
$PUCSORGLEFT
 10
0.0
 20
0.0
 30
0.0
  9
$PUCSORGRIGHT
 10
0.0
 20
0.0
 30
0.0
  9
$PUCSORGFRONT
 10
0.0
 20
0.0
 30
0.0
  9
$PUCSORGBACK
 10
0.0
 20
0.0
 30
0.0
  9
$USERI1
 70
     0
  9
$USERI2
 70
     0
  9
$USERI3
 70
     0
  9
$USERI4
 70
     0
  9
$USERI5
 70
     0
  9
$USERR1
 40
0.0
  9
$USERR2
 40
0.0
  9
$USERR3
 40
0.0
  9
$USERR4
 40
0.0
  9
$USERR5
 40
0.0
  9
$WORLDVIEW
 70
     1
  9
$SHADEDGE
 70
     3
  9
$SHADEDIF
 70
    70
  9
$TILEMODE
 70
     1
  9
$MAXACTVP
 70
    64
  9
$PINSBASE
 10
0.0
 20
0.0
 30
0.0
  9
$PLIMCHECK
 70
     0
  9
$PEXTMIN
 10
1.000000000000000E+20
 20
1.000000000000000E+20
 30
1.000000000000000E+20
  9
$PEXTMAX
 10
-1.000000000000000E+20
 20
-1.000000000000000E+20
 30
-1.000000000000000E+20
  9
$PLIMMIN
 10
0.0
 20
0.0
  9
$PLIMMAX
 10
12.0
 20
9.0
  9
$UNITMODE
 70
     0
  9
$VISRETAIN
 70
     1
  9
$PLINEGEN
 70
     0
  9
$PSLTSCALE
 70
     1
  9
$TREEDEPTH
 70
  3020
  9
$CMLSTYLE
  2
Standard
  9
$CMLJUST
 70
     0
  9
$CMLSCALE
 40
1.0
  9
$PROXYGRAPHICS
 70
     1
  9
$MEASUREMENT
 70
     0
  9
$CELWEIGHT
370
    -1
  9
$ENDCAPS
280
     0
  9
$JOINSTYLE
280
     0
  9
$LWDISPLAY
290
     1
  9
$INSUNITS
 70
     1
  9
$HYPERLINKBASE
  1

  9
$STYLESHEET
  1

  9
$XEDIT
290
     1
  9
$CEPSNTYPE
380
     0
  9
$PSTYLEMODE
290
     1
  9
$FINGERPRINTGUID
  2
{28D3A875-B375-4E92-9D25-E41BDF993BBC}
  9
$VERSIONGUID
  2
{183418F9-3252-400B-A526-BCCD836B44F8}
  9
$EXTNAMES
290
     1
  9
$PSVPSCALE
 40
0.0
  9
$OLESTARTUP
290
     0
  0
ENDSEC
  0
SECTION
  2
CLASSES
  0
CLASS
  1
ACDBDICTIONARYWDFLT
  2
AcDbDictionaryWithDefault
  3
AutoCAD 2000
 90
        0
280
     0
281
     0
  0
CLASS
  1
ACDBPLACEHOLDER
  2
AcDbPlaceHolder
  3
AutoCAD 2000
 90
        0
280
     0
281
     0
  0
CLASS
  1
LAYOUT
  2
AcDbLayout
  3
AutoCAD 2000
 90
        0
280
     0
281
     0
  0
ENDSEC
  0
SECTION
  2
TABLES
  0
TABLE
  2
VPORT
  5
8
330
0
100
AcDbSymbolTable
 70
     4
  0
VPORT
  5
20E
330
8
100
AcDbSymbolTableRecord
100
AcDbViewportTableRecord
  2
*Active
 70
     0
 10
0.0
 20
0.0
 11
1.0
 21
1.0
 12
2.107609001693592
 22
20.80718521622295
 13
0.0
 23
0.0
 14
0.5
 24
0.5
 15
0.5
 25
0.5
 16
0.0
 26
0.0
 36
1.0
 17
0.0
 27
0.0
 37
0.0
 40
55.05869098350874
 41
1.775280898876404
 42
50.0
 43
0.0
 44
0.0
 50
0.0
 51
0.0
 71
     0
 72
  2000
 73
     1
 74
     3
 75
     0
 76
     0
 77
     0
 78
     0
281
     0
 65
     1
110
0.0
120
0.0
130
0.0
111
1.0
121
0.0
131
0.0
112
0.0
122
1.0
132
0.0
 79
     0
146
0.0
  0
ENDTAB
  0
TABLE
  2
LTYPE
  5
5
330
0
100
AcDbSymbolTable
 70
     6
  0
LTYPE
  5
14
330
5
100
AcDbSymbolTableRecord
100
AcDbLinetypeTableRecord
  2
ByBlock
 70
     0
  3

 72
    65
 73
     0
 40
0.0
  0
LTYPE
  5
15
330
5
100
AcDbSymbolTableRecord
100
AcDbLinetypeTableRecord
  2
ByLayer
 70
     0
  3

 72
    65
 73
     0
 40
0.0
  0
LTYPE
  5
16
330
5
100
AcDbSymbolTableRecord
100
AcDbLinetypeTableRecord
  2
Continuous
 70
     0
  3
Solid line
 72
    65
 73
     0
 40
0.0
  0
LTYPE
  5
2A
330
5
100
AcDbSymbolTableRecord
100
AcDbLinetypeTableRecord
  2
HIDDEN
 70
     0
  3
Hidden __ __ __ __ __ __ __ __ __ __ __ __ __ __
 72
    65
 73
     2
 40
0.075
 49
0.05
 74
     0
 49
-0.025
 74
     0
  0
LTYPE
  5
2B
330
5
100
AcDbSymbolTableRecord
100
AcDbLinetypeTableRecord
  2
PHANTOM
 70
     0
  3
Phantom ______  __  __  ______  __  __  ______
 72
    65
 73
     6
 40
0.5
 49
0.25
 74
     0
 49
-0.05
 74
     0
 49
0.05
 74
     0
 49
-0.05
 74
     0
 49
0.05
 74
     0
 49
-0.05
 74
     0
  0
LTYPE
  5
2C
330
5
100
AcDbSymbolTableRecord
100
AcDbLinetypeTableRecord
  2
CENTER
 70
     0
  3
Center ____ _ ____ _ ____ _ ____ _ ____ _ ____
 72
    65
 73
     4
 40
0.4
 49
0.25
 74
     0
 49
-0.05
 74
     0
 49
0.05
 74
     0
 49
-0.05
 74
     0
  0
LTYPE
  5
2D
330
5
100
AcDbSymbolTableRecord
100
AcDbLinetypeTableRecord
  2
CENTERX2
 70
     0
  3
Center (2x) ________  __  ________  __  _____
 72
    65
 73
     4
 40
0.8
 49
0.5
 74
     0
 49
-0.1
 74
     0
 49
0.1
 74
     0
 49
-0.1
 74
     0
  0
LTYPE
  5
2E
330
5
100
AcDbSymbolTableRecord
100
AcDbLinetypeTableRecord
  2
DOT2
 70
     0
  3
Dot (.5x) ........................................
 72
    65
 73
     2
 40
0.025
 49
0.0
 74
     0
 49
-0.025
 74
     0
  0
ENDTAB
  0
TABLE
  2
LAYER
  5
2
330
0
100
AcDbSymbolTable
 70
     3
  0
LAYER
  5
10
330
2
100
AcDbSymbolTableRecord
100
AcDbLayerTableRecord
  2
0
 70
     0
 62
     7
  6
Continuous
370
    -3
390
F
  0
LAYER
  5
2F
330
2
100
AcDbSymbolTableRecord
100
AcDbLayerTableRecord
  2
SLD-0
 70
     0
 62
    -7
  6
Continuous
370
    -3
390
F
  0
LAYER
  5
30
330
2
100
AcDbSymbolTableRecord
100
AcDbLayerTableRecord
  2
FORMAT
 70
     0
 62
     7
  6
Continuous
370
    -3
390
F
  0
ENDTAB
  0
TABLE
  2
STYLE
  5
3
330
0
100
AcDbSymbolTable
 70
     2
  0
STYLE
  5
11
330
3
100
AcDbSymbolTableRecord
100
AcDbTextStyleTableRecord
  2
Standard
 70
     0
 40
0.0
 41
1.0
 50
0.0
 71
     0
 42
0.2
  3
txt
  4

  0
STYLE
  5
1CF
330
3
100
AcDbSymbolTableRecord
100
AcDbTextStyleTableRecord
  2
SLDTEXTSTYLE0
 70
     0
 40
0.0
 41
0.75
 50
0.0
 71
     0
 42
0.2
  3
TXT
  4

  0
ENDTAB
  0
TABLE
  2
VIEW
  5
6
330
0
100
AcDbSymbolTable
 70
     0
  0
ENDTAB
  0
TABLE
  2
UCS
  5
7
330
0
100
AcDbSymbolTable
 70
     0
  0
ENDTAB
  0
TABLE
  2
APPID
  5
9
330
0
100
AcDbSymbolTable
 70
     1
  0
APPID
  5
12
330
9
100
AcDbSymbolTableRecord
100
AcDbRegAppTableRecord
  2
ACAD
 70
     0
  0
ENDTAB
  0
TABLE
  2
DIMSTYLE
  5
A
330
0
100
AcDbSymbolTable
 70
     1
100
AcDbDimStyleTable
 71
     0
  0
DIMSTYLE
105
27
330
A
100
AcDbSymbolTableRecord
100
AcDbDimStyleTableRecord
  2
Standard
 70
     0
340
11
  0
ENDTAB
  0
TABLE
  2
BLOCK_RECORD
  5
1
330
0
100
AcDbSymbolTable
 70
     4
  0
BLOCK_RECORD
  5
1F
330
1
100
AcDbSymbolTableRecord
100
AcDbBlockTableRecord
  2
*Model_Space
340
22
  0
BLOCK_RECORD
  5
1B
330
1
100
AcDbSymbolTableRecord
100
AcDbBlockTableRecord
  2
*Paper_Space
340
1E
  0
BLOCK_RECORD
  5
23
330
1
100
AcDbSymbolTableRecord
100
AcDbBlockTableRecord
  2
*Paper_Space0
340
26
  0
BLOCK_RECORD
  5
1CC
330
1
100
AcDbSymbolTableRecord
100
AcDbBlockTableRecord
  2
SW_NOTE_0
340
0
1001
ACAD
1000
DesignCenter Data
1002
{
1070
     1
1070
     0
1002
}
  0
BLOCK_RECORD
  5
201
330
1
100
AcDbSymbolTableRecord
100
AcDbBlockTableRecord
  2
A$C41B97D41
340
0
  0
ENDTAB
  0
ENDSEC
  0
SECTION
  2
BLOCKS
  0
BLOCK
  5
20
330
1F
100
AcDbEntity
  8
0
100
AcDbBlockBegin
  2
*Model_Space
 70
     0
 10
0.0
 20
0.0
 30
0.0
  3
*Model_Space
  1

  0
ENDBLK
  5
21
330
1F
100
AcDbEntity
  8
0
100
AcDbBlockEnd
  0
BLOCK
  5
1C
330
1B
100
AcDbEntity
 67
     1
  8
0
100
AcDbBlockBegin
  2
*Paper_Space
 70
     0
 10
0.0
 20
0.0
 30
0.0
  3
*Paper_Space
  1

  0
ENDBLK
  5
1D
330
1B
100
AcDbEntity
 67
     1
  8
0
100
AcDbBlockEnd
  0
BLOCK
  5
24
330
23
100
AcDbEntity
  8
0
100
AcDbBlockBegin
  2
*Paper_Space0
 70
     0
 10
0.0
 20
0.0
 30
0.0
  3
*Paper_Space0
  1

  0
ENDBLK
  5
25
330
23
100
AcDbEntity
  8
0
100
AcDbBlockEnd
  0
BLOCK
  5
1CD
330
1CC
100
AcDbEntity
  8
0
100
AcDbBlockBegin
  2
SW_NOTE_0
 70
     0
 10
0.0
 20
0.0
 30
0.0
  3
SW_NOTE_0
  1

  0
MTEXT
  5
1D0
330
1CC
100
AcDbEntity
  8
FORMAT
 62
     0
100
AcDbMText
 10
0.0
 20
1.330566406249998
 30
0.0
 40
1.041666666666666
 41
0.0
 71
     1
 72
     1
  1
TITUS
  7
SLDTEXTSTYLE0
 73
     1
 44
1.0
  0
MTEXT
  5
1D1
330
1CC
100
AcDbEntity
  8
FORMAT
 62
     0
100
AcDbMText
 10
0.346257666668554
 20
-0.0583224291876561
 30
0.0
 40
1.041666666666666
 41
0.0
 71
     1
 72
     1
  1
TQS
  7
SLDTEXTSTYLE0
 73
     1
 44
1.0
  0
MTEXT
  5
1D2
330
1CC
100
AcDbEntity
  8
FORMAT
 62
     0
100
AcDbMText
 10
-0.9432870630673535
 20
-1.44721126462531
 30
0.0
 40
1.041666666666666
 41
0.0
 71
     1
 72
     1
  1
SIZE 5-7
  7
SLDTEXTSTYLE0
 73
     1
 44
1.0
  0
MTEXT
  5
1D3
330
1CC
100
AcDbEntity
  8
FORMAT
 62
     0
100
AcDbMText
 10
-3.374807213939081
 20
-2.836100100062965
 30
0.0
 40
1.041666666666666
 41
0.0
 71
     1
 72
     1
  1
W/WATER COIL
  7
SLDTEXTSTYLE0
 73
     1
 44
1.0
  0
MTEXT
  5
1D4
330
1CC
100
AcDbEntity
  8
FORMAT
 62
     0
100
AcDbMText
 10
-1.304976671464799
 20
-4.224988935500619
 30
0.0
 40
1.041666666666666
 41
0.0
 71
     1
 72
     1
  1
16" INLET
  7
SLDTEXTSTYLE0
 73
     1
 44
1.0
  0
ENDBLK
  5
1CE
330
1CC
100
AcDbEntity
  8
0
100
AcDbBlockEnd
  0
BLOCK
  5
20A
330
201
100
AcDbEntity
  8
0
100
AcDbBlockBegin
  2
A$C41B97D41
 70
     0
 10
0.0
 20
0.0
 30
0.0
  3
A$C41B97D41
  1

  0
LINE
  5
202
330
201
100
AcDbEntity
  8
0
370
    18
100
AcDbLine
 10
8.892810830033681
 20
-0.000000029926376
 30
0.0
 11
15.12876320999805
 21
5.37586801075858
 31
0.0
  0
LINE
  5
203
330
201
100
AcDbEntity
  8
0
370
    18
100
AcDbLine
 10
8.892810830033681
 20
10.75173605144354
 30
0.0
 11
15.12876320999805
 21
5.37586801075858
 31
0.0
  0
LINE
  5
204
330
201
100
AcDbEntity
  8
0
370
    18
100
AcDbLine
 10
8.892810830033681
 20
7.545908067046383
 30
0.0
 11
8.892810830033681
 21
10.75173605144354
 31
0.0
  0
MTEXT
  5
205
330
201
100
AcDbEntity
  8
0
  6
Continuous
 62
     0
370
    18
100
AcDbMText
 10
0.9606751118775491
 20
6.746000147288981
 30
0.0
 40
2.381249999999999
 41
0.0
 71
     1
 72
     1
  1
{\fVerdana|b0|i0|c0|p34;AIRFLOW}
  7
SLDTEXTSTYLE0
 73
     1
 44
1.0
  0
LINE
  5
206
330
201
100
AcDbEntity
  8
0
370
    18
100
AcDbLine
 10
-0.0000000297644647
 20
3.205827954470784
 30
0.0
 11
8.892810830033681
 21
3.205827954470784
 31
0.0
  0
LINE
  5
207
330
201
100
AcDbEntity
  8
0
370
    18
100
AcDbLine
 10
-0.0000000297644647
 20
7.545908067046383
 30
0.0
 11
8.892810830033681
 21
7.545908067046383
 31
0.0
  0
LINE
  5
208
330
201
100
AcDbEntity
  8
0
370
    18
100
AcDbLine
 10
-0.0000000297644647
 20
3.205827954470784
 30
0.0
 11
-0.0000000297644647
 21
7.545908067046383
 31
0.0
  0
LINE
  5
209
330
201
100
AcDbEntity
  8
0
370
    18
100
AcDbLine
 10
8.892810830033681
 20
3.205827954470784
 30
0.0
 11
8.892810830033681
 21
-0.000000029926376
 31
0.0
  0
ENDBLK
  5
20B
330
201
100
AcDbEntity
  8
0
100
AcDbBlockEnd
  0
ENDSEC
  0
SECTION
  2
ENTITIES
  0
LINE
  5
31
330
1F
100
AcDbEntity
  8
0
  6
Continuous
 62
     7
370
    -3
100
AcDbLine
 10
-27.57039235679593
 20
2.891486089205544
 30
0.0
 11
-24.11639236436525
 21
2.89148608920553
 31
0.0
  0
LINE
  5
33
330
1F
100
AcDbEntity
  8
0
  6
Continuous
 62
     7
370
    -3
100
AcDbLine
 10
-24.1163923643652
 20
16.76648527069764
 30
0.0
 11
-27.57039235679588
 21
16.76648527069766
 31
0.0
  0
LINE
  5
43
330
1F
100
AcDbEntity
  8
0
  6
Continuous
 62
     7
370
    -3
100
AcDbLine
 10
-24.1423907840293
 20
-0.1186212177780334
 30
0.0
 11
-24.14239078402922
 21
20.46659172675209
 31
0.0
  0
LINE
  5
44
330
1F
100
AcDbEntity
  8
0
  6
Continuous
 62
     7
370
    -3
100
AcDbLine
 10
-24.08039256690466
 20
-0.1090140754272284
 30
0.0
 11
-24.08039256690466
 21
-0.1010143811737123
 31
0.0
  0
SPLINE
  5
45
330
1F
100
AcDbEntity
  8
0
  6
Continuous
 62
     7
370
    -3
100
AcDbSpline
210
0.0
220
0.0
230
1.0
 70
     8
 71
     3
 72
    11
 73
     7
 74
     0
 42
0.0000000001
 43
0.0000000001
 40
0.0
 40
0.0
 40
0.0
 40
0.0
 40
0.2500082504681358
 40
0.5000056131416262
 40
0.7500129597815742
 40
1.0
 40
1.0
 40
1.0
 40
1.0
 10
-24.08039256690466
 20
-0.1090140754272284
 30
0.0
 10
-24.08132439879775
 20
-0.1098152445067189
 30
0.0
 10
-24.08318802200289
 20
-0.1114175477749963
 30
0.0
 10
-24.09752461979959
 20
-0.1138177273637986
 30
0.0
 10
-24.11801954145828
 20
-0.1162175462063429
 30
0.0
 10
-24.13426725646339
 20
-0.1178200156146573
 30
0.0
 10
-24.1423907840293
 20
-0.1186212177780334
 30
0.0
  0
SPLINE
  5
46
330
1F
100
AcDbEntity
  8
0
  6
Continuous
 62
     7
370
    -3
100
AcDbSpline
210
0.0
220
0.0
230
1.0
 70
     8
 71
     3
 72
     9
 73
     5
 74
     0
 42
0.0000000001
 43
0.0000000001
 40
0.0
 40
0.0
 40
0.0
 40
0.0
 40
0.1015739522925288
 40
0.9999999999999998
 40
0.9999999999999998
 40
0.9999999999999998
 40
0.9999999999999998
 10
-24.11639236436518
 20
20.46391861096549
 30
0.0
 10
-24.11714341605958
 20
20.46400905080877
 30
0.0
 10
-24.12453755281844
 20
20.46489943501892
 30
0.0
 10
-24.13394178072206
 20
20.4657908533258
 30
0.0
 10
-24.14239078402922
 20
20.46659172675209
 30
0.0
  0
SPLINE
  5
4A
330
1F
100
AcDbEntity
  8
0
  6
Continuous
 62
     7
370
    -3
100
AcDbSpline
210
0.0
220
0.0
230
1.0
 70
    24
 71
     1
 72
     4
 73
     2
 74
     0
 42
0.0000000001
 43
0.0000000001
 40
0.0
 40
0.0
 40
1.0
 40
1.0
 10
-24.14239078402922
 20
20.46698537553796
 30
0.0
 10
-24.14239078402922
 20
20.51898544149543
 30
0.0
  0
SPLINE
  5
4B
330
1F
100
AcDbEntity
  8
0
  6
Continuous
 62
     7
370
    -3
100
AcDbSpline
210
0.0
220
0.0
230
1.0
 70
     8
 71
     3
 72
     9
 73
     5
 74
     0
 42
0.0000000001
 43
0.0000000001
 40
0.0
 40
0.0
 40
0.0
 40
0.0
 40
0.8984319660068333
 40
1.0
 40
1.0
 40
1.0
 40
1.0
 10
-24.14239078402923
 20
20.51898544149543
 30
0.0
 10
-24.13394197248613
 20
20.5187176656189
 30
0.0
 10
-24.12453801997469
 20
20.51841961759005
 30
0.0
 10
-24.11714341940701
 20
20.51326967631119
 30
0.0
 10
-24.11639236436518
 20
20.51274660690031
 30
0.0
  0
SPLINE
  5
51
330
1F
100
AcDbEntity
  8
0
  6
Continuous
 62
     7
370
    -3
100
AcDbSpline
210
0.0
220
0.0
230
1.0
 70
    24
 71
     1
 72
     4
 73
     2
 74
     0
 42
0.0000000001
 43
0.0000000001
 40
0.0
 40
0.0
 40
1.0
 40
1.0
 10
-24.1423907840293
 20
-0.1190154532237919
 30
0.0
 10
-24.1423907840293
 20
-0.171014639191425
 30
0.0
  0
SPLINE
  5
53
330
1F
100
AcDbEntity
  8
0
  6
Continuous
 62
     7
370
    -3
100
AcDbSpline
210
0.0
220
0.0
230
1.0
 70
     8
 71
     3
 72
    11
 73
     7
 74
     0
 42
0.0000000001
 43
0.0000000001
 40
0.0
 40
0.0
 40
0.0
 40
0.0
 40
0.2499818930406646
 40
0.4999876276142346
 40
0.7499945539863833
 40
1.0
 40
1.0
 40
1.0
 40
1.0
 10
-24.1423907840293
 20
-0.171014639191425
 30
0.0
 10
-24.1342672459355
 20
-0.1700826035182923
 30
0.0
 10
-24.11801939498138
 20
-0.1682184432809408
 30
0.0
 10
-24.09752416004093
 20
-0.1538829410662251
 30
0.0
 10
-24.08318833073954
 20
-0.1333872372236429
 30
0.0
 10
-24.08132448634356
 20
-0.1171384466570727
 30
0.0
 10
-24.08039256690466
 20
-0.1090140754272284
 30
0.0
  0
LINE
  5
54
330
1F
100
AcDbEntity
  8
0
  6
Continuous
 62
     7
370
    -3
100
AcDbLine
 10
-24.04639210634755
 20
-0.1390135155377985
 30
0.0
 11
-24.08039256690466
 21
-0.1390135155377985
 31
0.0
  0
LINE
  5
55
330
1F
100
AcDbEntity
  8
0
  6
Continuous
 62
     7
370
    -3
100
AcDbLine
 10
-24.08039256690466
 20
-0.1090398884623629
 30
0.0
 11
-24.08039256690466
 21
-0.1390135155377985
 31
0.0
  0
LINE
  5
56
330
1F
100
AcDbEntity
  8
0
  6
Continuous
 62
     7
370
    -3
100
AcDbLine
 10
-24.04639210634755
 20
-0.1060150700719898
 30
0.0
 11
-24.04639210634755
 21
-0.1390135155377985
 31
0.0
  0
LINE
  5
57
330
1F
100
AcDbEntity
  8
0
  6
Continuous
 62
     7
370
    -3
100
AcDbLine
 10
31.68560748617077
 20
21.52398531165096
 30
0.0
 11
22.78560853971807
 21
21.52398531165099
 31
0.0
  0
LINE
  5
58
330
1F
100
AcDbEntity
  8
0
  6
Continuous
 62
     7
370
    -3
100
AcDbLine
 10
22.78560853971807
 20
21.52398531165099
 30
0.0
 11
22.78560853971813
 21
38.52398517953519
 31
0.0
  0
LINE
  5
59
330
1F
100
AcDbEntity
  8
0
  6
Continuous
 62
     7
370
    -3
100
AcDbLine
 10
28.34689085531026
 20
38.52398517953517
 30
0.0
 11
22.78560853971813
 21
38.52398517953519
 31
0.0
  0
LINE
  5
5A
330
1F
100
AcDbEntity
  8
0
  6
Continuous
 62
     7
370
    -3
100
AcDbLine
 10
28.34689085531026
 20
41.08200181577537
 30
0.0
 11
28.34689085531026
 21
38.52398517953517
 31
0.0
  0
LINE
  5
5B
330
1F
100
AcDbEntity
  8
0
  6
Continuous
 62
     7
370
    -3
100
AcDbLine
 10
28.72189089661112
 20
41.08200181577537
 30
0.0
 11
28.34689085531026
 21
41.08200181577537
 31
0.0
  0
LINE
  5
5C
330
1F
100
AcDbEntity
  8
0
  6
Continuous
 62
     7
370
    -3
100
AcDbLine
 10
28.72189089661112
 20
41.08200181577537
 30
0.0
 11
28.72189089661111
 21
38.52398517953517
 31
0.0
  0
LINE
  5
5D
330
1F
100
AcDbEntity
  8
0
  6
Continuous
 62
     7
370
    -3
100
AcDbLine
 10
29.75089234283193
 20
38.52398517953515
 30
0.0
 11
28.72189089661111
 21
38.52398517953517
 31
0.0
  0
LINE
  5
5E
330
1F
100
AcDbEntity
  8
0
  6
Continuous
 62
     7
370
    -3
100
AcDbLine
 10
29.75089234283194
 20
41.08200181577536
 30
0.0
 11
29.75089234283193
 21
38.52398517953515
 31
0.0
  0
LINE
  5
5F
330
1F
100
AcDbEntity
  8
0
  6
Continuous
 62
     7
370
    -3
100
AcDbLine
 10
30.1258923841328
 20
41.08200181577536
 30
0.0
 11
29.75089234283194
 21
41.08200181577536
 31
0.0
  0
LINE
  5
60
330
1F
100
AcDbEntity
  8
0
  6
Continuous
 62
     7
370
    -3
100
AcDbLine
 10
31.68560748617083
 20
38.52398517953515
 30
0.0
 11
30.12589238413279
 21
38.52398517953515
 31
0.0
  0
LINE
  5
61
330
1F
100
AcDbEntity
  8
0
  6
Continuous
 62
     7
370
    -3
100
AcDbLine
 10
31.68560748617083
 20
38.52398517953515
 30
0.0
 11
31.68560748617084
 21
38.77398559817565
 31
0.0
  0
LINE
  5
62
330
1F
100
AcDbEntity
  8
0
  6
Continuous
 62
     7
370
    -3
100
AcDbLine
 10
31.78560953093868
 20
38.77398559817565
 30
0.0
 11
31.68560748617084
 21
38.77398559817565
 31
0.0
  0
LINE
  5
63
330
1F
100
AcDbEntity
  8
0
  6
Continuous
 62
     7
370
    -3
100
AcDbLine
 10
31.78560953093862
 20
21.27398533300538
 30
0.0
 11
31.78560953093868
 21
38.77398559817565
 31
0.0
  0
LINE
  5
64
330
1F
100
AcDbEntity
  8
0
  6
Continuous
 62
     7
370
    -3
100
AcDbLine
 10
31.78560953093862
 20
21.27398533300538
 30
0.0
 11
31.68560748617077
 21
21.27398533300538
 31
0.0
  0
LINE
  5
65
330
1F
100
AcDbEntity
  8
0
  6
Continuous
 62
     7
370
    -3
100
AcDbLine
 10
31.68560748617077
 20
21.27398533300538
 30
0.0
 11
31.68560748617077
 21
21.52398531165096
 31
0.0
  0
LINE
  5
66
330
1F
100
AcDbEntity
  8
0
  6
Continuous
 62
     7
370
    -3
100
AcDbLine
 10
30.1258923841328
 20
41.08200181577536
 30
0.0
 11
30.12589238413279
 21
38.52398517953515
 31
0.0
  0
LINE
  5
6D
330
1F
100
AcDbEntity
  8
0
  6
Continuous
 62
     7
370
    -3
100
AcDbLine
 10
-27.57039235679588
 20
16.76648527069766
 30
0.0
 11
-27.57039235679593
 21
2.891486089205544
 31
0.0
  0
LINE
  5
6E
330
1F
100
AcDbEntity
  8
0
  6
Continuous
 62
     7
370
    -3
100
AcDbLine
 10
-1.241391494993972
 20
-0.1660139502932306
 30
0.0
 11
-21.24139048329899
 21
-0.1660139502931563
 31
0.0
  0
LINE
  5
6F
330
1F
100
AcDbEntity
  8
0
  6
Continuous
 62
     7
370
    -3
100
AcDbLine
 10
-1.241391494993995
 20
-6.416013856427648
 30
0.0
 11
-1.241391494993972
 21
-0.1660139502932306
 31
0.0
  0
LINE
  5
70
330
1F
100
AcDbEntity
  8
0
  6
Continuous
 62
     7
370
    -3
100
AcDbLine
 10
-21.24139048329901
 20
-6.416013856427574
 30
0.0
 11
-1.241391494993995
 21
-6.416013856427648
 31
0.0
  0
LINE
  5
71
330
1F
100
AcDbEntity
  8
0
  6
Continuous
 62
     7
370
    -3
100
AcDbLine
 10
-21.24139048329899
 20
-0.1660139502931563
 30
0.0
 11
-21.24139048329901
 21
-6.416013856427574
 31
0.0
  0
LINE
  5
75
330
1F
100
AcDbEntity
  8
0
  6
Continuous
 62
     7
370
    -3
100
AcDbLine
 10
22.71560828170045
 20
47.96398578117602
 30
0.0
 11
22.71560828170045
 21
47.96698478653126
 31
0.0
  0
SPLINE
  5
76
330
1F
100
AcDbEntity
  8
0
  6
Continuous
 62
     7
370
    -3
100
AcDbSpline
210
0.0
220
0.0
230
1.0
 70
    24
 71
     1
 72
     4
 73
     2
 74
     0
 42
0.0000000001
 43
0.0000000001
 40
0.0
 40
0.0
 40
1.0
 40
1.0
 10
22.71560828170028
 20
-0.1190154532239668
 30
0.0
 10
22.70260789854848
 20
-0.1190154532239668
 30
0.0
  0
LINE
  5
77
330
1F
100
AcDbEntity
  8
0
  6
Continuous
 62
     7
370
    -3
100
AcDbLine
 10
22.71560828170028
 20
-0.106015070072169
 30
0.0
 11
22.71560828170028
 21
-0.1190154532239668
 31
0.0
  0
SPLINE
  5
78
330
1F
100
AcDbEntity
  8
0
  6
Continuous
 62
     7
370
    -3
100
AcDbSpline
210
0.0
220
0.0
230
1.0
 70
     8
 71
     3
 72
    11
 73
     7
 74
     0
 42
0.0000000001
 43
0.0000000001
 40
0.0
 40
0.0
 40
0.0
 40
0.0
 40
0.2499978917056597
 40
0.499999088091767
 40
0.7500021082943401
 40
0.9999999999999998
 40
0.9999999999999998
 40
0.9999999999999998
 40
0.9999999999999998
 10
22.71560828170045
 20
47.96698478653126
 30
0.0
 10
22.7148262685806
 20
47.97379874728669
 30
0.0
 10
22.71326223200359
 20
47.98742675887018
 30
0.0
 10
22.70123954405321
 20
48.00461454000818
 30
0.0
 10
22.68405095353423
 20
48.01664101384116
 30
0.0
 10
22.67042300173943
 20
48.01820455605176
 30
0.0
 10
22.66360909573282
 20
48.01898631913845
 30
0.0
  0
SPLINE
  5
79
330
1F
100
AcDbEntity
  8
0
  6
Continuous
 62
     7
370
    -3
100
AcDbSpline
210
0.0
220
0.0
230
1.0
 70
     8
 71
     3
 72
    11
 73
     7
 74
     0
 42
0.0000000001
 43
0.0000000001
 40
0.0
 40
0.0
 40
0.0
 40
0.0
 40
0.2500011607132067
 40
0.5000056261500734
 40
0.7499988392867932
 40
1.0
 40
1.0
 40
1.0
 40
1.0
 10
22.71560828170028
 20
-0.1190154532239668
 30
0.0
 10
22.7148262401047
 20
-0.1258293588056972
 30
0.0
 10
22.71326214657587
 20
-0.1394572600410319
 30
0.0
 10
22.70124009537254
 20
-0.1566455691243709
 30
0.0
 10
22.68405031655418
 20
-0.1686688234435933
 30
0.0
 10
22.67042290821055
 20
-0.1702326923228572
 30
0.0
 10
22.66360909573264
 20
-0.1710146391915999
 30
0.0
  0
LINE
  5
7A
330
1F
100
AcDbEntity
  8
0
  6
Continuous
 62
     7
370
    -3
100
AcDbLine
 10
22.66360909573264
 20
-0.1710146391915999
 30
0.0
 11
21.96560819909856
 21
-0.1710146391915955
 31
0.0
  0
LINE
  5
7B
330
1F
100
AcDbEntity
  8
0
  6
Continuous
 62
     7
370
    -3
100
AcDbLine
 10
21.96560819909856
 20
-0.1660139502933137
 30
0.0
 11
21.96560819909856
 21
-0.1710146391915955
 31
0.0
  0
LINE
  5
AC
330
1F
100
AcDbEntity
  8
0
  6
Continuous
 62
     7
370
    -3
100
AcDbLine
 10
-21.24139048329899
 20
-0.2510139283661563
 30
0.0
 11
-22.20599779340636
 21
-0.2510139283661519
 31
0.0
  0
LINE
  5
AD
330
1F
100
AcDbEntity
  8
0
  6
Continuous
 62
     7
370
    -3
100
AcDbLine
 10
-22.29099777147936
 20
-0.166013950293152
 30
0.0
 11
-22.20599779340636
 21
-0.2510139283661519
 31
0.0
  0
LINE
  5
AE
330
1F
100
AcDbEntity
  8
0
  6
Continuous
 62
     7
370
    -3
100
AcDbLine
 10
22.72060897059873
 20
47.95898509227774
 30
0.0
 11
22.74560772181103
 21
47.95898509227774
 31
0.0
  0
LINE
  5
AF
330
1F
100
AcDbEntity
  8
0
  6
Continuous
 62
     7
370
    -3
100
AcDbLine
 10
22.74560772181103
 20
47.95898509227774
 30
0.0
 11
22.74560772181085
 21
-0.1010143811738872
 31
0.0
  0
LINE
  5
B0
330
1F
100
AcDbEntity
  8
0
  6
Continuous
 62
     7
370
    -3
100
AcDbLine
 10
22.72060897059856
 20
-0.1010143811738872
 30
0.0
 11
22.74560772181085
 21
-0.1010143811738872
 31
0.0
  0
LINE
  5
B1
330
1F
100
AcDbEntity
  8
0
  6
Continuous
 62
     7
370
    -3
100
AcDbLine
 10
22.69560787274671
 20
-0.126015479025738
 30
0.0
 11
22.72060897059856
 21
-0.1010143811738872
 31
0.0
  0
LINE
  5
B2
330
1F
100
AcDbEntity
  8
0
  6
Continuous
 62
     7
370
    -3
100
AcDbLine
 10
22.69560787274671
 20
-0.126015479025738
 30
0.0
 11
-0.5643915007556767
 21
-0.1260154790256506
 31
0.0
  0
LINE
  5
B5
330
1F
100
AcDbEntity
  8
0
  6
Continuous
 62
     7
370
    -3
100
AcDbLine
 10
-0.5843915063805716
 20
-0.1260154790256505
 30
0.0
 11
-0.5843915063803938
 21
47.98398619012968
 31
0.0
  0
LINE
  5
B8
330
1F
100
AcDbEntity
  8
0
  6
Continuous
 62
     7
370
    -3
100
AcDbLine
 10
-0.5643915007554986
 20
47.98398619012968
 30
0.0
 11
22.69560787274688
 21
47.98398619012959
 31
0.0
  0
LINE
  5
B9
330
1F
100
AcDbEntity
  8
0
  6
Continuous
 62
     7
370
    -3
100
AcDbLine
 10
22.69560787274688
 20
47.98398619012959
 30
0.0
 11
22.72060897059873
 21
47.95898509227774
 31
0.0
  0
SPLINE
  5
FE
330
1F
100
AcDbEntity
  8
0
  6
Continuous
 62
     7
370
    -3
100
AcDbSpline
210
0.0
220
0.0
230
1.0
 70
     8
 71
     3
 72
    11
 73
     7
 74
     0
 42
0.0000000001
 43
0.0000000001
 40
0.0
 40
0.0
 40
0.0
 40
0.0
 40
0.2499921422273971
 40
0.4999901273791217
 40
0.7500078577726029
 40
1.0
 40
1.0
 40
1.0
 40
1.0
 10
22.6806081526916
 20
48.02398466139717
 30
0.0
 10
22.68185812785282
 20
48.02338392250597
 30
0.0
 10
22.68435810739023
 20
48.02218243068287
 30
0.0
 10
22.68810821721353
 20
48.01293149028245
 30
0.0
 10
22.69185769240264
 20
47.99971133693293
 30
0.0
 10
22.69435785528102
 20
47.98922772689667
 30
0.0
 10
22.69560787274689
 20
47.98398619012959
 30
0.0
  0
LINE
  5
100
330
1F
100
AcDbEntity
  8
0
  6
Continuous
 62
     7
370
    -3
100
AcDbLine
 10
-0.5643915007554986
 20
48.02398466139726
 30
0.0
 11
22.68060815269159
 21
48.02398466139717
 31
0.0
  0
LINE
  5
101
330
1F
100
AcDbEntity
  8
0
  6
Continuous
 62
     7
370
    -3
100
AcDbLine
 10
22.68060815269142
 20
-0.1660139502933181
 30
0.0
 11
-1.241391494993972
 21
-0.1660139502932281
 31
0.0
  0
SPLINE
  5
103
330
1F
100
AcDbEntity
  8
0
  6
Continuous
 62
     7
370
    -3
100
AcDbSpline
210
0.0
220
0.0
230
1.0
 70
     8
 71
     3
 72
    11
 73
     7
 74
     0
 42
0.0000000001
 43
0.0000000001
 40
0.0
 40
0.0
 40
0.0
 40
0.0
 40
0.2499921422273971
 40
0.4999901273791217
 40
0.7500078577726029
 40
1.0
 40
1.0
 40
1.0
 40
1.0
 10
22.68060815269142
 20
-0.1660139502933224
 30
0.0
 10
22.68185812785264
 20
-0.1654132114021225
 30
0.0
 10
22.68435810739005
 20
-0.1642117195790117
 30
0.0
 10
22.68810821721336
 20
-0.1549607791785875
 30
0.0
 10
22.69185769240246
 20
-0.1417406258290802
 30
0.0
 10
22.69435785528084
 20
-0.1312570157928164
 30
0.0
 10
22.69560787274671
 20
-0.1260154790257424
 30
0.0
  0
LINE
  5
104
330
1F
100
AcDbEntity
  8
0
  6
Continuous
 62
     7
370
    -3
100
AcDbLine
 10
22.78560853971816
 20
47.95898509227774
 30
0.0
 11
22.78560853971813
 21
38.52398517953519
 31
0.0
  0
LINE
  5
105
330
1F
100
AcDbEntity
  8
0
  6
Continuous
 62
     7
370
    -3
100
AcDbLine
 10
22.78560853971807
 20
21.52398531165099
 30
0.0
 11
22.78560853971799
 21
-0.1010143811738872
 31
0.0
  0
LINE
  5
106
330
1F
100
AcDbEntity
  8
0
  6
Continuous
 62
     7
370
    -3
100
AcDbLine
 10
22.78560853971799
 20
-0.1010143811738872
 30
0.0
 11
22.74560772181085
 21
-0.1010143811738872
 31
0.0
  0
LINE
  5
107
330
1F
100
AcDbEntity
  8
0
  6
Continuous
 62
     7
370
    -3
100
AcDbLine
 10
22.74560772181103
 20
47.95898509227774
 30
0.0
 11
22.78560853971816
 21
47.95898509227774
 31
0.0
  0
LINE
  5
10A
330
1F
100
AcDbEntity
  8
0
  6
Continuous
 62
     7
370
    -3
100
AcDbLine
 10
-0.6243915038805205
 20
-0.1260154790256504
 30
0.0
 11
-0.624391503880343
 21
47.98398619012968
 31
0.0
  0
LINE
  5
10B
330
1F
100
AcDbEntity
  8
0
  6
Continuous
 62
     7
370
    -3
100
AcDbLine
 10
-24.0263916973938
 20
47.98398619012977
 30
0.0
 11
22.69560787274687
 21
47.98398619012959
 31
0.0
  0
LINE
  5
10C
330
1F
100
AcDbEntity
  8
0
  6
Continuous
 62
     7
370
    -3
100
AcDbLine
 10
-24.01139197733852
 20
48.02398466139734
 30
0.0
 11
22.68060815269244
 21
48.02398466139718
 31
0.0
  0
SPLINE
  5
10E
330
1F
100
AcDbEntity
  8
0
  6
Continuous
 62
     7
370
    -3
100
AcDbSpline
210
0.0
220
0.0
230
1.0
 70
     8
 71
     3
 72
    11
 73
     7
 74
     0
 42
0.0000000001
 43
0.0000000001
 40
0.0
 40
0.0
 40
0.0
 40
0.0
 40
0.2499921422273971
 40
0.4999901273791217
 40
0.7500078577726029
 40
1.0
 40
1.0
 40
1.0
 40
1.0
 10
-24.01139197733852
 20
48.02398466139734
 30
0.0
 10
-24.01264195249974
 20
48.02338392250615
 30
0.0
 10
-24.01514193203714
 20
48.02218243068304
 30
0.0
 10
-24.01889204186046
 20
48.01293149028262
 30
0.0
 10
-24.02264151704955
 20
47.9997113369331
 30
0.0
 10
-24.02514167992794
 20
47.98922772689684
 30
0.0
 10
-24.0263916973938
 20
47.98398619012977
 30
0.0
  0
LINE
  5
10F
330
1F
100
AcDbEntity
  8
0
  6
Continuous
 62
     7
370
    -3
100
AcDbLine
 10
-24.05139044860627
 20
-0.1010143811737123
 30
0.0
 11
-24.07639154645812
 21
-0.1010143811737123
 31
0.0
  0
LINE
  5
110
330
1F
100
AcDbEntity
  8
0
  6
Continuous
 62
     7
370
    -3
100
AcDbLine
 10
-24.07639154645812
 20
-0.1010143811737123
 30
0.0
 11
-24.07639154645794
 21
47.95898509227792
 31
0.0
  0
LINE
  5
111
330
1F
100
AcDbEntity
  8
0
  6
Continuous
 62
     7
370
    -3
100
AcDbLine
 10
-24.05139044860609
 20
47.95898509227792
 30
0.0
 11
-24.07639154645794
 21
47.95898509227792
 31
0.0
  0
LINE
  5
114
330
1F
100
AcDbEntity
  8
0
  6
Continuous
 62
     7
370
    -3
100
AcDbLine
 10
-0.746391507025896
 20
47.98398619012968
 30
0.0
 11
-0.7463915070260735
 21
-0.1260154790256499
 31
0.0
  0
LINE
  5
117
330
1F
100
AcDbEntity
  8
0
  6
Continuous
 62
     7
370
    -3
100
AcDbLine
 10
-0.5643915007556767
 20
-0.1260154790256506
 30
0.0
 11
-24.02639169739398
 21
-0.1260154790255632
 31
0.0
  0
LINE
  5
118
330
1F
100
AcDbEntity
  8
0
  6
Continuous
 62
     7
370
    -3
100
AcDbLine
 10
-24.02639169739398
 20
-0.1260154790255632
 30
0.0
 11
-24.05139044860627
 21
-0.1010143811737123
 31
0.0
  0
LINE
  5
15D
330
1F
100
AcDbEntity
  8
0
  6
Continuous
 62
     7
370
    -3
100
AcDbLine
 10
-24.0263916973938
 20
47.98398619012977
 30
0.0
 11
-24.05139044860609
 21
47.95898509227792
 31
0.0
  0
SPLINE
  5
15E
330
1F
100
AcDbEntity
  8
0
  6
Continuous
 62
     7
370
    -3
100
AcDbSpline
210
0.0
220
0.0
230
1.0
 70
     8
 71
     3
 72
    11
 73
     7
 74
     0
 42
0.0000000001
 43
0.0000000001
 40
0.0
 40
0.0
 40
0.0
 40
0.0
 40
0.2499921422273971
 40
0.4999901273791217
 40
0.7500078577726029
 40
1.0
 40
1.0
 40
1.0
 40
1.0
 10
-24.01139197733869
 20
-0.1660139502931476
 30
0.0
 10
-24.01264195249991
 20
-0.1654132114019476
 30
0.0
 10
-24.01514193203732
 20
-0.1642117195788369
 30
0.0
 10
-24.01889204186063
 20
-0.1549607791784127
 30
0.0
 10
-24.02264151704972
 20
-0.1417406258289053
 30
0.0
 10
-24.02514167992812
 20
-0.1312570157926416
 30
0.0
 10
-24.02639169739398
 20
-0.1260154790255676
 30
0.0
  0
LINE
  5
161
330
1F
100
AcDbEntity
  8
0
  6
Continuous
 62
     7
370
    -3
100
AcDbLine
 10
-21.24141160305501
 20
-0.1660139502931563
 30
0.0
 11
-24.01139197733869
 21
-0.1660139502931432
 31
0.0
  0
LINE
  5
162
330
1F
100
AcDbEntity
  8
0
  6
Continuous
 62
     7
370
    -3
100
AcDbLine
 10
-24.11639236436526
 20
-0.1010143811737123
 30
0.0
 11
-24.11639236436508
 21
47.95898509227792
 31
0.0
  0
LINE
  5
163
330
1F
100
AcDbEntity
  8
0
  6
Continuous
 62
     7
370
    -3
100
AcDbLine
 10
-24.11639236436508
 20
47.95898509227792
 30
0.0
 11
-24.07639154645794
 21
47.95898509227792
 31
0.0
  0
LINE
  5
164
330
1F
100
AcDbEntity
  8
0
  6
Continuous
 62
     7
370
    -3
100
AcDbLine
 10
-24.07639154645812
 20
-0.1010143811737123
 30
0.0
 11
-24.11639236436526
 21
-0.1010143811737123
 31
0.0
  0
LINE
  5
166
330
1F
100
AcDbEntity
  8
0
  6
Continuous
 62
     7
370
    -3
100
AcDbLine
 10
-0.7063915049426666
 20
47.98398619012968
 30
0.0
 11
-0.7063915049428442
 21
-0.1260154790256501
 31
0.0
  0
SPLINE
  5
16B
330
1F
100
AcDbEntity
  8
0
  6
Continuous
 62
     7
370
    -3
100
AcDbSpline
210
0.0
220
0.0
230
1.0
 70
     8
 71
     3
 72
    11
 73
     7
 74
     0
 42
0.0000000001
 43
0.0000000001
 40
0.0
 40
0.0
 40
0.0
 40
0.0
 40
0.1818712449944486
 40
0.4545846801823973
 40
0.727300165688156
 40
1.0
 40
1.0
 40
1.0
 40
1.0
 10
-24.0445922338065
 20
-0.1078149426130463
 30
0.0
 10
-24.04378828520203
 20
-0.1139887944124659
 30
0.0
 10
-24.04177882670154
 20
-0.1294202522320895
 30
0.0
 10
-24.02664340354043
 20
-0.1501031800005139
 30
0.0
 10
-24.00333430647559
 20
-0.1665722702465714
 30
0.0
 10
-23.98470604389222
 20
-0.1687000306395152
 30
0.0
 10
-23.97539217987809
 20
-0.1697638803069651
 30
0.0
  0
SPLINE
  5
16C
330
1F
100
AcDbEntity
  8
0
  6
Continuous
 62
     7
370
    -3
100
AcDbSpline
210
0.0
220
0.0
230
1.0
 70
     8
 71
     3
 72
    10
 73
     6
 74
     0
 42
0.0000000001
 43
0.0000000001
 40
0.0
 40
0.0
 40
0.0
 40
0.0
 40
0.1087087758842589
 40
0.7827510963010388
 40
1.0
 40
1.0
 40
1.0
 40
1.0
 10
-24.02188145616316
 20
48.00192155627222
 30
0.0
 10
-24.02313692996525
 20
48.00112105404121
 30
0.0
 10
-24.03217689465044
 20
47.99535708518209
 30
0.0
 10
-24.0403020521261
 20
47.98261247159683
 30
0.0
 10
-24.04225337447087
 20
47.97058141145633
 30
0.0
 10
-24.0427290019972
 20
47.96764888552637
 30
0.0
  0
LINE
  5
16D
330
1F
100
AcDbEntity
  8
0
  6
Continuous
 62
     7
370
    -3
100
AcDbLine
 10
-23.29639202374583
 20
-0.1660139502931476
 30
0.0
 11
-23.29639202374583
 21
-0.1697638803069694
 31
0.0
  0
LINE
  5
16E
330
1F
100
AcDbEntity
  8
0
  6
Continuous
 62
     7
370
    -3
100
AcDbLine
 10
-23.97539217987809
 20
-0.1697638803069651
 30
0.0
 11
-23.29639202374583
 21
-0.1697638803069694
 31
0.0
  0
MTEXT
  5
1DD
330
1F
100
AcDbEntity
  8
FORMAT
 62
     0
370
    -3
100
AcDbMText
 10
-11.94998142308087
 20
27.2025121045121
 30
0.0
 40
1.041666666666666
 41
0.0
 71
     1
 72
     1
  1
TITUS
  7
SLDTEXTSTYLE0
 73
     1
 44
1.0
  0
MTEXT
  5
1DE
330
1F
100
AcDbEntity
  8
FORMAT
 62
     0
370
    -3
100
AcDbMText
 10
-11.60372375641232
 20
25.81362326907445
 30
0.0
 40
1.041666666666666
 41
0.0
 71
     1
 72
     1
  1
TQP
  7
SLDTEXTSTYLE0
 73
     1
 44
1.0
  0
MTEXT
  5
1DF
330
1F
100
AcDbEntity
  8
FORMAT
 62
     0
370
    -3
100
AcDbMText
 10
-12.89326848614822
 20
24.42473443363679
 30
0.0
 40
1.041666666666666
 41
0.0
 71
     1
 72
     1
  1
SIZE 5-7
  7
SLDTEXTSTYLE0
 73
     1
 44
1.0
  0
MTEXT
  5
1E0
330
1F
100
AcDbEntity
  8
FORMAT
 62
     0
370
    -3
100
AcDbMText
 10
-15.32478863701995
 20
23.03584559819913
 30
0.0
 40
1.041666666666666
 41
0.0
 71
     1
 72
     1
  1
W/WATER COIL
  7
SLDTEXTSTYLE0
 73
     1
 44
1.0
  0
MTEXT
  5
1E1
330
1F
100
AcDbEntity
  8
FORMAT
 62
     0
370
    -3
100
AcDbMText
 10
-13.25495809454567
 20
21.64695676276148
 30
0.0
 40
1.041666666666666
 41
0.0
 71
     1
 72
     1
  1
16" INLET
  7
SLDTEXTSTYLE0
 73
     1
 44
1.0
  0
LINE
  5
1F9
330
1F
100
AcDbEntity
  8
0
370
    18
100
AcDbLine
 10
-31.12556436515203
 20
18.2343490939993
 30
0.0
 11
-24.88961198518765
 21
23.61021713468426
 31
0.0
  0
LINE
  5
1FA
330
1F
100
AcDbEntity
  8
0
370
    18
100
AcDbLine
 10
-31.12556436515203
 20
28.98608517536922
 30
0.0
 11
-24.88961198518765
 21
23.61021713468426
 31
0.0
  0
LINE
  5
1FB
330
1F
100
AcDbEntity
  8
0
370
    18
100
AcDbLine
 10
-31.12556436515203
 20
25.78025719097206
 30
0.0
 11
-31.12556436515203
 21
28.98608517536922
 31
0.0
  0
MTEXT
  5
1FC
330
1F
100
AcDbEntity
  8
0
  6
Continuous
 62
     0
370
    18
100
AcDbMText
 10
-39.05770008330816
 20
24.98034927121466
 30
0.0
 40
2.381249999999999
 41
0.0
 71
     1
 72
     1
  1
{\fVerdana|b0|i0|c0|p34;AIRFLOW}
  7
SLDTEXTSTYLE0
 73
     1
 44
1.0
  0
LINE
  5
1FD
330
1F
100
AcDbEntity
  8
0
370
    18
100
AcDbLine
 10
-40.01837522495018
 20
21.44017707839646
 30
0.0
 11
-31.12556436515203
 21
21.44017707839646
 31
0.0
  0
LINE
  5
1FE
330
1F
100
AcDbEntity
  8
0
370
    18
100
AcDbLine
 10
-40.01837522495018
 20
25.78025719097206
 30
0.0
 11
-31.12556436515203
 21
25.78025719097206
 31
0.0
  0
LINE
  5
1FF
330
1F
100
AcDbEntity
  8
0
370
    18
100
AcDbLine
 10
-40.01837522495018
 20
21.44017707839646
 30
0.0
 11
-40.01837522495018
 21
25.78025719097206
 31
0.0
  0
LINE
  5
200
330
1F
100
AcDbEntity
  8
0
370
    18
100
AcDbLine
 10
-31.12556436515203
 20
21.44017707839646
 30
0.0
 11
-31.12556436515203
 21
18.2343490939993
 31
0.0
  0
ENDSEC
  0
SECTION
  2
OBJECTS
  0
DICTIONARY
  5
C
330
0
100
AcDbDictionary
281
     1
  3
ACAD_GROUP
350
D
  3
ACAD_LAYOUT
350
1A
  3
ACAD_MLINESTYLE
350
17
  3
ACAD_PLOTSETTINGS
350
19
  3
ACAD_PLOTSTYLENAME
350
E
  0
DICTIONARY
  5
D
102
{ACAD_REACTORS
330
C
102
}
330
C
100
AcDbDictionary
281
     1
  0
DICTIONARY
  5
1A
102
{ACAD_REACTORS
330
C
102
}
330
C
100
AcDbDictionary
281
     1
  3
Layout1
350
1E
  3
Layout2
350
26
  3
Model
350
22
  0
DICTIONARY
  5
17
102
{ACAD_REACTORS
330
C
102
}
330
C
100
AcDbDictionary
281
     1
  3
Standard
350
18
  0
DICTIONARY
  5
19
102
{ACAD_REACTORS
330
C
102
}
330
C
100
AcDbDictionary
281
     1
  0
ACDBDICTIONARYWDFLT
  5
E
102
{ACAD_REACTORS
330
C
102
}
330
C
100
AcDbDictionary
281
     1
  3
Normal
350
F
100
AcDbDictionaryWithDefault
340
F
  0
LAYOUT
  5
1E
102
{ACAD_REACTORS
330
1A
102
}
330
1A
100
AcDbPlotSettings
  1

  2
none_device
  4

  6

 40
0.0
 41
0.0
 42
0.0
 43
0.0
 44
0.0
 45
0.0
 46
0.0
 47
0.0
 48
0.0
 49
0.0
140
0.0
141
0.0
142
1.0
143
1.0
 70
   688
 72
     0
 73
     0
 74
     5
  7

 75
    16
147
1.0
148
0.0
149
0.0
100
AcDbLayout
  1
Layout1
 70
     1
 71
     1
 10
0.0
 20
0.0
 11
12.0
 21
9.0
 12
0.0
 22
0.0
 32
0.0
 14
1.000000000000000E+20
 24
1.000000000000000E+20
 34
1.000000000000000E+20
 15
-1.000000000000000E+20
 25
-1.000000000000000E+20
 35
-1.000000000000000E+20
146
0.0
 13
0.0
 23
0.0
 33
0.0
 16
1.0
 26
0.0
 36
0.0
 17
0.0
 27
1.0
 37
0.0
 76
     0
330
1B
  0
LAYOUT
  5
26
102
{ACAD_REACTORS
330
1A
102
}
330
1A
100
AcDbPlotSettings
  1

  2
none_device
  4

  6

 40
0.0
 41
0.0
 42
0.0
 43
0.0
 44
0.0
 45
0.0
 46
0.0
 47
0.0
 48
0.0
 49
0.0
140
0.0
141
0.0
142
1.0
143
1.0
 70
   688
 72
     0
 73
     0
 74
     5
  7

 75
    16
147
1.0
148
0.0
149
0.0
100
AcDbLayout
  1
Layout2
 70
     1
 71
     2
 10
0.0
 20
0.0
 11
0.0
 21
0.0
 12
0.0
 22
0.0
 32
0.0
 14
0.0
 24
0.0
 34
0.0
 15
0.0
 25
0.0
 35
0.0
146
0.0
 13
0.0
 23
0.0
 33
0.0
 16
1.0
 26
0.0
 36
0.0
 17
0.0
 27
1.0
 37
0.0
 76
     0
330
23
  0
LAYOUT
  5
22
102
{ACAD_REACTORS
330
1A
102
}
330
1A
100
AcDbPlotSettings
  1

  2
none_device
  4

  6

 40
0.0
 41
0.0
 42
0.0
 43
0.0
 44
0.0
 45
0.0
 46
0.0
 47
0.0
 48
0.0
 49
0.0
140
0.0
141
0.0
142
1.0
143
1.0
 70
  1712
 72
     0
 73
     0
 74
     0
  7

 75
     0
147
1.0
148
0.0
149
0.0
100
AcDbLayout
  1
Model
 70
     1
 71
     0
 10
0.0
 20
0.0
 11
0.0
 21
0.0
 12
0.0
 22
0.0
 32
0.0
 14
0.0
 24
0.0
 34
0.0
 15
11.0
 25
8.5
 35
0.0
146
0.0
 13
0.0
 23
0.0
 33
0.0
 16
1.0
 26
0.0
 36
0.0
 17
0.0
 27
1.0
 37
0.0
 76
     0
330
1F
  0
MLINESTYLE
  5
18
102
{ACAD_REACTORS
330
17
102
}
330
17
100
AcDbMlineStyle
  2
STANDARD
 70
     0
  3

 62
   256
 51
90.0
 52
90.0
 71
     2
 49
0.5
 62
   256
  6
BYLAYER
 49
-0.5
 62
   256
  6
BYLAYER
  0
ACDBPLACEHOLDER
  5
F
102
{ACAD_REACTORS
330
E
102
}
330
E
  0
ENDSEC
  0
EOF
